It's always been important to me to respond to tab requests, it's how I learned guitar. Even just seeing a tab and I'm thirteen again sitting on my bed smashing out Against Me at my parents house. So in the interest of preventing repetition and to reach more people, I'm just gonna write em out here from now on.




Jesus Bus

Intro
e|-----------------------------------------------------0------------------------------------------------
b|-------------------0-------------------------------3-----0-----------------0-------0------------------
g|-----4---2-0---------2---2-3-4---4---2-0---0h2p0-------0-----4---2-0---------2---2---0-0-0-0-0-0-0-0--
d|---------------0h1-----1-------------------------1---------------------0h1-----1-----2-2-2-2-2-2-2-2--
a|-------------2---------------------------2---------------------------2---------------3-3-3-3-3-3-3-3--
e|-3-3---3-----------------------3---3-----------------------3---3--------------------------------------

Second guitar part
e|----------------------------------------------------------
b|-------------------0--------------------------------------
g|-----4---2-0---------2---2-3-4---4---2-0---0h2p0-0-0-0-0--
d|---------------0h1-----1-------------------------1-1-1-1--
a|-------------2---------------------------2-------2-2-2-2--
e|-3-3---3-----------------------3---3----------------------

Verse chords
e|------------------
b|--0--0--0--0------
g|--0--2--0--0------
d|--0--1--2--2------
a|--2--2--2--3------
e|--3-----0---------
    G  B7 Em Cmaj7

For the picking parts, all the notes are reachable from the chord shapes, video.

Capo on 4th, moving it into B. If you don't have one you can do it without and the chords become B Eb7 Abm Emaj7.
The picking does become alot more difficult to play then, it is possible though, just practice. Free CD and patch to the first person that does it.


Prove It If You're Awful

e|--2-----------2---------------
b|--3--5--7--3--3--5--7--7------
g|--4--6--7--4--4--6--7--7------
d|--4--7--7--5--4--7--7--7------
a|--2--7--5--5--2--7--5--5------
e|-----5-----3-----5------------
    Bm A  D  G  Bm A  D  D

These bar chords the whole way through, sounds like this.